ISO-10303-21;
HEADER;
FILE_DESCRIPTION((''),'2;1');
FILE_NAME('AA030062','2019-06-05T16:06:09',('SJ03'),(''),
'CREO PARAMETRIC BY PTC INC, 2018100','CREO PARAMETRIC BY PTC INC, 2018100','');
FILE_SCHEMA(('CONFIG_CONTROL_DESIGN'));
ENDSEC;
DATA;
#1=CARTESIAN_POINT('',(1.908413200434E-11,0.E0,0.E0));
#2=DIRECTION('',(-4.688975922424E-14,0.E0,-1.E0));
#3=DIRECTION('',(1.E0,0.E0,-4.688975922424E-14));
#4=AXIS2_PLACEMENT_3D('',#1,#2,#3);
#6=CARTESIAN_POINT('',(1.908413200434E-11,0.E0,0.E0));
#7=DIRECTION('',(-4.688975922424E-14,0.E0,-1.E0));
#8=DIRECTION('',(-1.E0,0.E0,4.688975922424E-14));
#9=AXIS2_PLACEMENT_3D('',#6,#7,#8);
#11=CARTESIAN_POINT('',(4.350000000002E1,3.926519109854E-9,-1.000000000002E0));
#12=DIRECTION('',(9.026480431162E-11,-1.E0,0.E0));
#13=DIRECTION('',(1.E0,9.026480431162E-11,-6.372680161348E-14));
#14=AXIS2_PLACEMENT_3D('',#11,#12,#13);
#16=CARTESIAN_POINT('',(1.903724224511E-11,0.E0,-9.999999999998E-1));
#17=DIRECTION('',(-4.688975922424E-14,0.E0,-1.E0));
#18=DIRECTION('',(1.E0,0.E0,-4.688883488720E-14));
#19=AXIS2_PLACEMENT_3D('',#16,#17,#18);
#21=DIRECTION('',(-3.119455913093E-14,6.409299157604E-13,-1.E0));
#22=VECTOR('',#21,2.46E2);
#23=CARTESIAN_POINT('',(4.450000000002E1,-1.576651261582E-10,
-1.000000000002E0));
#24=LINE('',#23,#22);
#25=DIRECTION('',(-6.262018907024E-14,-6.409243774695E-13,-1.E0));
#26=VECTOR('',#25,2.46E2);
#27=CARTESIAN_POINT('',(-4.449999999998E1,1.576637637387E-10,
-9.999999999979E-1));
#28=LINE('',#27,#26);
#29=CARTESIAN_POINT('',(1.903724224511E-11,0.E0,-9.999999999998E-1));
#30=DIRECTION('',(-4.688975922424E-14,0.E0,-1.E0));
#31=DIRECTION('',(-1.E0,0.E0,4.688883488720E-14));
#32=AXIS2_PLACEMENT_3D('',#29,#30,#31);
#34=CARTESIAN_POINT('',(-4.349999999998E1,-3.926515113051E-9,
-9.999999999980E-1));
#35=DIRECTION('',(-9.026471237128E-11,1.E0,0.E0));
#36=DIRECTION('',(-1.E0,-9.026471237128E-11,6.372680161348E-14));
#37=AXIS2_PLACEMENT_3D('',#34,#35,#36);
#39=CARTESIAN_POINT('',(7.502361475950E-12,0.E0,-2.47E2));
#40=DIRECTION('',(-4.688975922424E-14,0.E0,-1.E0));
#41=DIRECTION('',(1.E0,0.E0,-4.662437726785E-14));
#42=AXIS2_PLACEMENT_3D('',#39,#40,#41);
#44=CARTESIAN_POINT('',(7.502361475950E-12,0.E0,-2.47E2));
#45=DIRECTION('',(4.688975922424E-14,0.E0,1.E0));
#46=DIRECTION('',(1.E0,0.E0,-4.662437726785E-14));
#47=AXIS2_PLACEMENT_3D('',#44,#45,#46);
#49=CARTESIAN_POINT('',(7.502361475950E-12,0.E0,-2.47E2));
#50=DIRECTION('',(-4.688975922424E-14,0.E0,-1.E0));
#51=DIRECTION('',(1.E0,0.E0,-4.673792217443E-14));
#52=AXIS2_PLACEMENT_3D('',#49,#50,#51);
#54=CARTESIAN_POINT('',(7.502361475950E-12,0.E0,-2.47E2));
#55=DIRECTION('',(-4.688975922424E-14,0.E0,-1.E0));
#56=DIRECTION('',(-1.E0,0.E0,4.673792217443E-14));
#57=AXIS2_PLACEMENT_3D('',#54,#55,#56);
#59=CARTESIAN_POINT('',(4.500000000002E1,3.270229753660E-9,-2.475E2));
#60=DIRECTION('',(7.267177137837E-11,-1.E0,0.E0));
#61=DIRECTION('',(1.E0,7.267177137837E-11,-1.136868377216E-13));
#62=AXIS2_PLACEMENT_3D('',#59,#60,#61);
#64=CARTESIAN_POINT('',(7.478916596338E-12,0.E0,-2.475E2));
#65=DIRECTION('',(-4.688975922424E-14,0.E0,-1.E0));
#66=DIRECTION('',(1.E0,0.E0,-4.684897158857E-14));
#67=AXIS2_PLACEMENT_3D('',#64,#65,#66);
#69=DIRECTION('',(-4.780014767841E-14,6.074093904619E-10,-1.E0));
#70=VECTOR('',#69,5.5E0);
#71=CARTESIAN_POINT('',(4.550000000002E1,-1.372752639671E-10,-2.475E2));
#72=LINE('',#71,#70);
#73=CARTESIAN_POINT('',(7.221022920605E-12,0.E0,-2.53E2));
#74=DIRECTION('',(-4.688975922424E-14,0.E0,-1.E0));
#75=DIRECTION('',(1.E0,0.E0,-4.684897158857E-14));
#76=AXIS2_PLACEMENT_3D('',#73,#74,#75);
#78=DIRECTION('',(-4.521635591201E-14,-6.074111411260E-10,-1.E0));
#79=VECTOR('',#78,5.5E0);
#80=CARTESIAN_POINT('',(-4.55E1,1.372737851327E-10,-2.475E2));
#81=LINE('',#80,#79);
#82=CARTESIAN_POINT('',(7.478916596338E-12,0.E0,-2.475E2));
#83=DIRECTION('',(-4.688975922424E-14,0.E0,-1.E0));
#84=DIRECTION('',(-1.E0,0.E0,4.684897158857E-14));
#85=AXIS2_PLACEMENT_3D('',#82,#83,#84);
#87=CARTESIAN_POINT('',(7.221022920605E-12,0.E0,-2.53E2));
#88=DIRECTION('',(-4.688975922424E-14,0.E0,-1.E0));
#89=DIRECTION('',(-1.E0,0.E0,4.684897158857E-14));
#90=AXIS2_PLACEMENT_3D('',#87,#88,#89);
#92=CARTESIAN_POINT('',(-4.5E1,-3.270220649831E-9,-2.475E2));
#93=DIRECTION('',(-7.267157015045E-11,1.E0,0.E0));
#94=DIRECTION('',(-1.E0,-7.267157015045E-11,5.684341886081E-14));
#95=AXIS2_PLACEMENT_3D('',#92,#93,#94);
#97=CARTESIAN_POINT('',(-4.35E1,0.E0,-2.53E2));
#98=DIRECTION('',(0.E0,1.E0,0.E0));
#99=DIRECTION('',(-3.197442310920E-14,0.E0,-1.E0));
#100=AXIS2_PLACEMENT_3D('',#97,#98,#99);
#102=CARTESIAN_POINT('',(7.127243402156E-12,0.E0,-2.55E2));
#103=DIRECTION('',(-4.688975922424E-14,0.E0,-1.E0));
#104=DIRECTION('',(1.E0,0.E0,-4.704282940204E-14));
#105=AXIS2_PLACEMENT_3D('',#102,#103,#104);
#107=CARTESIAN_POINT('',(7.127243402156E-12,0.E0,-2.55E2));
#108=DIRECTION('',(-4.688975922424E-14,0.E0,-1.E0));
#109=DIRECTION('',(-1.E0,0.E0,4.704282940204E-14));
#110=AXIS2_PLACEMENT_3D('',#107,#108,#109);
#112=CARTESIAN_POINT('',(7.127243402156E-12,0.E0,-2.55E2));
#113=DIRECTION('',(4.688975922424E-14,0.E0,1.E0));
#114=DIRECTION('',(1.E0,0.E0,-4.325983170533E-14));
#115=AXIS2_PLACEMENT_3D('',#112,#113,#114);
#117=DIRECTION('',(-2.664535259078E-14,0.E0,-1.E0));
#118=VECTOR('',#117,1.000000000008E-1);
#119=CARTESIAN_POINT('',(3.285000000007E0,0.E0,-2.55E2));
#120=LINE('',#119,#118);
#121=DIRECTION('',(-5.329070518154E-14,0.E0,-1.E0));
#122=VECTOR('',#121,1.000000000009E-1);
#123=CARTESIAN_POINT('',(-3.284999999993E0,0.E0,-2.55E2));
#124=LINE('',#123,#122);
#125=CARTESIAN_POINT('',(7.127243402156E-12,0.E0,-2.55E2));
#126=DIRECTION('',(-4.688975922424E-14,0.E0,-1.E0));
#127=DIRECTION('',(1.E0,0.E0,-4.325983170533E-14));
#128=AXIS2_PLACEMENT_3D('',#125,#126,#127);
#130=CARTESIAN_POINT('',(7.122554426234E-12,0.E0,-2.551E2));
#131=DIRECTION('',(-4.688975922424E-14,0.E0,-1.E0));
#132=DIRECTION('',(1.E0,0.E0,-4.325983170533E-14));
#133=AXIS2_PLACEMENT_3D('',#130,#131,#132);
#135=CARTESIAN_POINT('',(7.122554426234E-12,0.E0,-2.551E2));
#136=DIRECTION('',(4.688975922424E-14,0.E0,1.E0));
#137=DIRECTION('',(1.E0,0.E0,-4.325983170533E-14));
#138=AXIS2_PLACEMENT_3D('',#135,#136,#137);
#140=CARTESIAN_POINT('',(7.122554426234E-12,0.E0,-2.551E2));
#141=DIRECTION('',(-4.688975922424E-14,0.E0,-1.E0));
#142=DIRECTION('',(1.E0,0.E0,-4.872293045212E-14));
#143=AXIS2_PLACEMENT_3D('',#140,#141,#142);
#145=CARTESIAN_POINT('',(7.122554426234E-12,0.E0,-2.551E2));
#146=DIRECTION('',(-4.688975922424E-14,0.E0,-1.E0));
#147=DIRECTION('',(-1.E0,0.E0,4.872293045212E-14));
#148=AXIS2_PLACEMENT_3D('',#145,#146,#147);
#150=CARTESIAN_POINT('',(7.000000000007E0,5.235001110382E-8,-2.556E2));
#151=DIRECTION('',(7.478573010866E-9,-1.E0,0.E0));
#152=DIRECTION('',(1.E0,7.478573010866E-9,-1.136868377216E-13));
#153=AXIS2_PLACEMENT_3D('',#150,#151,#152);
#155=CARTESIAN_POINT('',(7.099109546622E-12,0.E0,-2.556E2));
#156=DIRECTION('',(-4.688975922424E-14,0.E0,-1.E0));
#157=DIRECTION('',(1.E0,0.E0,-4.547473508865E-14));
#158=AXIS2_PLACEMENT_3D('',#155,#156,#157);
#160=DIRECTION('',(-4.688330102393E-14,9.590541127215E-11,-1.E0));
#161=VECTOR('',#160,1.504E2);
#162=CARTESIAN_POINT('',(7.500000000007E0,1.607142348635E-10,-2.556E2));
#163=LINE('',#162,#161);
#164=CARTESIAN_POINT('',(4.688975929671E-14,0.E0,-4.06E2));
#165=DIRECTION('',(-4.688975922424E-14,0.E0,-1.E0));
#166=DIRECTION('',(1.E0,0.E0,-4.547473508865E-14));
#167=AXIS2_PLACEMENT_3D('',#164,#165,#166);
#169=DIRECTION('',(-4.690101734879E-14,-9.590538027523E-11,-1.E0));
#170=VECTOR('',#169,1.504E2);
#171=CARTESIAN_POINT('',(-7.499999999993E0,-1.607144634857E-10,-2.556E2));
#172=LINE('',#171,#170);
#173=CARTESIAN_POINT('',(7.099109546622E-12,0.E0,-2.556E2));
#174=DIRECTION('',(-4.688975922424E-14,0.E0,-1.E0));
#175=DIRECTION('',(-1.E0,0.E0,4.547473508865E-14));
#176=AXIS2_PLACEMENT_3D('',#173,#174,#175);
#178=CARTESIAN_POINT('',(4.688975929671E-14,0.E0,-4.06E2));
#179=DIRECTION('',(-4.688975922424E-14,0.E0,-1.E0));
#180=DIRECTION('',(-1.E0,0.E0,4.547473508865E-14));
#181=AXIS2_PLACEMENT_3D('',#178,#179,#180);
#183=CARTESIAN_POINT('',(-6.999999999993E0,-5.235001065973E-8,-2.556E2));
#184=DIRECTION('',(-7.478572941477E-9,1.E0,0.E0));
#185=DIRECTION('',(-1.E0,-7.478572941477E-9,1.136868377216E-13));
#186=AXIS2_PLACEMENT_3D('',#183,#184,#185);
#188=CARTESIAN_POINT('',(-6.5E0,0.E0,-4.06E2));
#189=DIRECTION('',(0.E0,1.E0,0.E0));
#190=DIRECTION('',(6.939337993117E-12,0.E0,-1.E0));
#191=AXIS2_PLACEMENT_3D('',#188,#189,#190);
#193=CARTESIAN_POINT('',(0.E0,0.E0,-4.07E2));
#194=DIRECTION('',(-4.688975922424E-14,0.E0,-1.E0));
#195=DIRECTION('',(1.E0,0.E0,-4.372570681601E-14));
#196=AXIS2_PLACEMENT_3D('',#193,#194,#195);
#198=CARTESIAN_POINT('',(0.E0,0.E0,-4.07E2));
#199=DIRECTION('',(-4.688975922424E-14,0.E0,-1.E0));
#200=DIRECTION('',(-1.E0,0.E0,4.372570681601E-14));
#201=AXIS2_PLACEMENT_3D('',#198,#199,#200);
#203=CARTESIAN_POINT('',(6.5E0,0.E0,-4.06E2));
#204=DIRECTION('',(0.E0,-1.E0,0.E0));
#205=DIRECTION('',(-7.039702154543E-12,0.E0,-1.E0));
#206=AXIS2_PLACEMENT_3D('',#203,#204,#205);
#208=CARTESIAN_POINT('',(4.350000000002E1,2.464695114668E-14,-2.53E2));
#209=DIRECTION('',(0.E0,-1.E0,0.E0));
#210=DIRECTION('',(-6.039613253961E-14,0.E0,-1.E0));
#211=AXIS2_PLACEMENT_3D('',#208,#209,#210);
#213=CARTESIAN_POINT('',(4.450000000001E1,0.E0,-2.47E2));
#214=CARTESIAN_POINT('',(-4.449999999999E1,0.E0,-2.47E2));
#215=VERTEX_POINT('',#213);
#216=VERTEX_POINT('',#214);
#217=CARTESIAN_POINT('',(6.5E0,0.E0,-4.07E2));
#218=CARTESIAN_POINT('',(-6.5E0,0.E0,-4.07E2));
#219=VERTEX_POINT('',#217);
#220=VERTEX_POINT('',#218);
#221=CARTESIAN_POINT('',(7.5E0,0.E0,-4.06E2));
#222=CARTESIAN_POINT('',(-7.5E0,0.E0,-4.06E2));
#223=VERTEX_POINT('',#221);
#224=VERTEX_POINT('',#222);
#225=CARTESIAN_POINT('',(4.350000000002E1,0.E0,-2.55E2));
#226=CARTESIAN_POINT('',(-4.35E1,-1.065442715258E-14,-2.55E2));
#227=VERTEX_POINT('',#225);
#228=VERTEX_POINT('',#226);
#229=CARTESIAN_POINT('',(4.550000000002E1,0.E0,-2.53E2));
#230=CARTESIAN_POINT('',(-4.55E1,-1.114428587224E-14,-2.53E2));
#231=VERTEX_POINT('',#229);
#232=VERTEX_POINT('',#230);
#233=CARTESIAN_POINT('',(4.450000000002E1,0.E0,-1.000000000002E0));
#234=CARTESIAN_POINT('',(-4.449999999998E1,-1.089935651241E-14,
-9.999999999977E-1));
#235=VERTEX_POINT('',#233);
#236=VERTEX_POINT('',#234);
#237=CARTESIAN_POINT('',(4.350000000002E1,0.E0,-2.039704526254E-12));
#238=CARTESIAN_POINT('',(-4.349999999998E1,-1.065442715258E-14,
2.039704526254E-12));
#239=VERTEX_POINT('',#237);
#240=VERTEX_POINT('',#238);
#241=CARTESIAN_POINT('',(3.285000000007E0,0.E0,-2.55E2));
#242=CARTESIAN_POINT('',(3.285000000007E0,0.E0,-2.551E2));
#243=VERTEX_POINT('',#241);
#244=VERTEX_POINT('',#242);
#245=CARTESIAN_POINT('',(-3.284999999993E0,0.E0,-2.55E2));
#246=CARTESIAN_POINT('',(-3.284999999993E0,0.E0,-2.551E2));
#247=VERTEX_POINT('',#245);
#248=VERTEX_POINT('',#246);
#249=CARTESIAN_POINT('',(7.500000000007E0,0.E0,-2.556E2));
#250=CARTESIAN_POINT('',(-7.499999999993E0,0.E0,-2.556E2));
#251=VERTEX_POINT('',#249);
#252=VERTEX_POINT('',#250);
#253=CARTESIAN_POINT('',(7.000000000007E0,0.E0,-2.551E2));
#254=CARTESIAN_POINT('',(-6.999999999993E0,0.E0,-2.551E2));
#255=VERTEX_POINT('',#253);
#256=VERTEX_POINT('',#254);
#257=CARTESIAN_POINT('',(4.550000000002E1,0.E0,-2.475E2));
#258=CARTESIAN_POINT('',(-4.55E1,-1.114428587224E-14,-2.475E2));
#259=VERTEX_POINT('',#257);
#260=VERTEX_POINT('',#258);
#261=CARTESIAN_POINT('',(4.500000000002E1,0.E0,-2.47E2));
#262=CARTESIAN_POINT('',(-4.5E1,-1.102182119233E-14,-2.47E2));
#263=VERTEX_POINT('',#261);
#264=VERTEX_POINT('',#262);
#265=CARTESIAN_POINT('',(1.908413200434E-11,0.E0,0.E0));
#266=DIRECTION('',(4.688975922424E-14,0.E0,1.E0));
#267=DIRECTION('',(-1.E0,0.E0,4.688975922424E-14));
#268=AXIS2_PLACEMENT_3D('',#265,#266,#267);
#269=PLANE('',#268);
#271=ORIENTED_EDGE('',*,*,#270,.T.);
#273=ORIENTED_EDGE('',*,*,#272,.T.);
#274=EDGE_LOOP('',(#271,#273));
#275=FACE_OUTER_BOUND('',#274,.F.);
#276=ADVANCED_FACE('',(#275),#269,.T.);
#277=CARTESIAN_POINT('',(1.903724224511E-11,0.E0,-1.E0));
#278=DIRECTION('',(4.688975922424E-14,0.E0,1.E0));
#279=DIRECTION('',(9.998882368936E-1,1.495037530776E-2,-4.688459071808E-14));
#280=AXIS2_PLACEMENT_3D('',#277,#278,#279);
#281=TOROIDAL_SURFACE('',#280,4.35E1,1.E0);
#283=ORIENTED_EDGE('',*,*,#282,.T.);
#285=ORIENTED_EDGE('',*,*,#284,.T.);
#286=ORIENTED_EDGE('',*,*,#270,.F.);
#288=ORIENTED_EDGE('',*,*,#287,.F.);
#289=EDGE_LOOP('',(#283,#285,#286,#288));
#290=FACE_OUTER_BOUND('',#289,.F.);
#291=ADVANCED_FACE('',(#290),#281,.T.);
#292=CARTESIAN_POINT('',(-9.542066001407E-13,0.E0,-4.2735E2));
#293=DIRECTION('',(4.688975922424E-14,0.E0,1.E0));
#294=DIRECTION('',(-1.E0,0.E0,4.688975922424E-14));
#295=AXIS2_PLACEMENT_3D('',#292,#293,#294);
#296=CYLINDRICAL_SURFACE('',#295,4.45E1);
#297=ORIENTED_EDGE('',*,*,#282,.F.);
#299=ORIENTED_EDGE('',*,*,#298,.T.);
#301=ORIENTED_EDGE('',*,*,#300,.T.);
#303=ORIENTED_EDGE('',*,*,#302,.F.);
#304=EDGE_LOOP('',(#297,#299,#301,#303));
#305=FACE_OUTER_BOUND('',#304,.F.);
#306=ADVANCED_FACE('',(#305),#296,.T.);
#307=CARTESIAN_POINT('',(-9.542066001407E-13,0.E0,-4.2735E2));
#308=DIRECTION('',(4.688975922424E-14,0.E0,1.E0));
#309=DIRECTION('',(-1.E0,0.E0,4.688975922424E-14));
#310=AXIS2_PLACEMENT_3D('',#307,#308,#309);
#311=CYLINDRICAL_SURFACE('',#310,4.45E1);
#313=ORIENTED_EDGE('',*,*,#312,.F.);
#314=ORIENTED_EDGE('',*,*,#302,.T.);
#316=ORIENTED_EDGE('',*,*,#315,.F.);
#317=ORIENTED_EDGE('',*,*,#298,.F.);
#318=EDGE_LOOP('',(#313,#314,#316,#317));
#319=FACE_OUTER_BOUND('',#318,.F.);
#320=ADVANCED_FACE('',(#319),#311,.T.);
#321=CARTESIAN_POINT('',(1.903724224511E-11,0.E0,-1.E0));
#322=DIRECTION('',(4.688975922424E-14,0.E0,1.E0));
#323=DIRECTION('',(-9.998882368936E-1,-1.495037530776E-2,4.688203848124E-14));
#324=AXIS2_PLACEMENT_3D('',#321,#322,#323);
#325=TOROIDAL_SURFACE('',#324,4.35E1,1.E0);
#326=ORIENTED_EDGE('',*,*,#312,.T.);
#327=ORIENTED_EDGE('',*,*,#287,.T.);
#328=ORIENTED_EDGE('',*,*,#272,.F.);
#329=ORIENTED_EDGE('',*,*,#284,.F.);
#330=EDGE_LOOP('',(#326,#327,#328,#329));
#331=FACE_OUTER_BOUND('',#330,.F.);
#332=ADVANCED_FACE('',(#331),#325,.T.);
#333=CARTESIAN_POINT('',(7.502361475950E-12,0.E0,-2.47E2));
#334=DIRECTION('',(4.688975922424E-14,0.E0,1.E0));
#335=DIRECTION('',(-1.E0,0.E0,4.688975922424E-14));
#336=AXIS2_PLACEMENT_3D('',#333,#334,#335);
#337=PLANE('',#336);
#339=ORIENTED_EDGE('',*,*,#338,.T.);
#341=ORIENTED_EDGE('',*,*,#340,.T.);
#342=EDGE_LOOP('',(#339,#341));
#343=FACE_OUTER_BOUND('',#342,.F.);
#344=ORIENTED_EDGE('',*,*,#300,.F.);
#345=ORIENTED_EDGE('',*,*,#315,.T.);
#346=EDGE_LOOP('',(#344,#345));
#347=FACE_BOUND('',#346,.F.);
#348=ADVANCED_FACE('',(#343,#347),#337,.T.);
#349=CARTESIAN_POINT('',(7.478916596338E-12,0.E0,-2.475E2));
#350=DIRECTION('',(4.688975922424E-14,0.E0,1.E0));
#351=DIRECTION('',(9.998930954857E-1,1.462181931234E-2,-4.673792217443E-14));
#352=AXIS2_PLACEMENT_3D('',#349,#350,#351);
#353=TOROIDAL_SURFACE('',#352,4.500000000001E1,5.E-1);
#355=ORIENTED_EDGE('',*,*,#354,.T.);
#357=ORIENTED_EDGE('',*,*,#356,.T.);
#358=ORIENTED_EDGE('',*,*,#338,.F.);
#360=ORIENTED_EDGE('',*,*,#359,.F.);
#361=EDGE_LOOP('',(#355,#357,#358,#360));
#362=FACE_OUTER_BOUND('',#361,.F.);
#363=ADVANCED_FACE('',(#362),#353,.T.);
#364=CARTESIAN_POINT('',(-9.542066001407E-13,0.E0,-4.2735E2));
#365=DIRECTION('',(4.688975922424E-14,0.E0,1.E0));
#366=DIRECTION('',(-1.E0,0.E0,4.688975922424E-14));
#367=AXIS2_PLACEMENT_3D('',#364,#365,#366);
#368=CYLINDRICAL_SURFACE('',#367,4.550000000001E1);
#369=ORIENTED_EDGE('',*,*,#354,.F.);
#371=ORIENTED_EDGE('',*,*,#370,.T.);
#373=ORIENTED_EDGE('',*,*,#372,.T.);
#375=ORIENTED_EDGE('',*,*,#374,.F.);
#376=EDGE_LOOP('',(#369,#371,#373,#375));
#377=FACE_OUTER_BOUND('',#376,.F.);
#378=ADVANCED_FACE('',(#377),#368,.T.);
#379=CARTESIAN_POINT('',(-9.542066001407E-13,0.E0,-4.2735E2));
#380=DIRECTION('',(4.688975922424E-14,0.E0,1.E0));
#381=DIRECTION('',(-1.E0,0.E0,4.688975922424E-14));
#382=AXIS2_PLACEMENT_3D('',#379,#380,#381);
#383=CYLINDRICAL_SURFACE('',#382,4.550000000001E1);
#385=ORIENTED_EDGE('',*,*,#384,.F.);
#386=ORIENTED_EDGE('',*,*,#374,.T.);
#388=ORIENTED_EDGE('',*,*,#387,.T.);
#389=ORIENTED_EDGE('',*,*,#370,.F.);
#390=EDGE_LOOP('',(#385,#386,#388,#389));
#391=FACE_OUTER_BOUND('',#390,.F.);
#392=ADVANCED_FACE('',(#391),#383,.T.);
#393=CARTESIAN_POINT('',(7.478916596338E-12,0.E0,-2.475E2));
#394=DIRECTION('',(4.688975922424E-14,0.E0,1.E0));
#395=DIRECTION('',(-9.998930954857E-1,-1.462181931234E-2,4.673792217443E-14));
#396=AXIS2_PLACEMENT_3D('',#393,#394,#395);
#397=TOROIDAL_SURFACE('',#396,4.500000000001E1,5.E-1);
#398=ORIENTED_EDGE('',*,*,#384,.T.);
#399=ORIENTED_EDGE('',*,*,#359,.T.);
#400=ORIENTED_EDGE('',*,*,#340,.F.);
#401=ORIENTED_EDGE('',*,*,#356,.F.);
#402=EDGE_LOOP('',(#398,#399,#400,#401));
#403=FACE_OUTER_BOUND('',#402,.F.);
#404=ADVANCED_FACE('',(#403),#397,.T.);
#405=CARTESIAN_POINT('',(7.221022920605E-12,0.E0,-2.53E2));
#406=DIRECTION('',(4.688975922424E-14,0.E0,1.E0));
#407=DIRECTION('',(-9.997666644475E-1,-2.160131152385E-2,4.704282940204E-14));
#408=AXIS2_PLACEMENT_3D('',#405,#406,#407);
#409=TOROIDAL_SURFACE('',#408,4.350000000001E1,2.E0);
#411=ORIENTED_EDGE('',*,*,#410,.T.);
#413=ORIENTED_EDGE('',*,*,#412,.T.);
#414=ORIENTED_EDGE('',*,*,#387,.F.);
#416=ORIENTED_EDGE('',*,*,#415,.F.);
#417=EDGE_LOOP('',(#411,#413,#414,#416));
#418=FACE_OUTER_BOUND('',#417,.F.);
#419=ADVANCED_FACE('',(#418),#409,.T.);
#420=CARTESIAN_POINT('',(7.127243402156E-12,0.E0,-2.55E2));
#421=DIRECTION('',(4.688975922424E-14,0.E0,1.E0));
#422=DIRECTION('',(-1.E0,0.E0,4.688975922424E-14));
#423=AXIS2_PLACEMENT_3D('',#420,#421,#422);
#424=PLANE('',#423);
#426=ORIENTED_EDGE('',*,*,#425,.F.);
#427=ORIENTED_EDGE('',*,*,#410,.F.);
#428=EDGE_LOOP('',(#426,#427));
#429=FACE_OUTER_BOUND('',#428,.F.);
#431=ORIENTED_EDGE('',*,*,#430,.F.);
#433=ORIENTED_EDGE('',*,*,#432,.T.);
#434=EDGE_LOOP('',(#431,#433));
#435=FACE_BOUND('',#434,.F.);
#436=ADVANCED_FACE('',(#429,#435),#424,.F.);
#437=CARTESIAN_POINT('',(-9.542066001407E-13,0.E0,-4.2735E2));
#438=DIRECTION('',(4.688975922424E-14,0.E0,1.E0));
#439=DIRECTION('',(-1.E0,0.E0,4.688975922424E-14));
#440=AXIS2_PLACEMENT_3D('',#437,#438,#439);
#441=CYLINDRICAL_SURFACE('',#440,3.285E0);
#443=ORIENTED_EDGE('',*,*,#442,.F.);
#444=ORIENTED_EDGE('',*,*,#430,.T.);
#446=ORIENTED_EDGE('',*,*,#445,.T.);
#448=ORIENTED_EDGE('',*,*,#447,.F.);
#449=EDGE_LOOP('',(#443,#444,#446,#448));
#450=FACE_OUTER_BOUND('',#449,.F.);
#451=ADVANCED_FACE('',(#450),#441,.T.);
#452=CARTESIAN_POINT('',(-9.542066001407E-13,0.E0,-4.2735E2));
#453=DIRECTION('',(4.688975922424E-14,0.E0,1.E0));
#454=DIRECTION('',(-1.E0,0.E0,4.688975922424E-14));
#455=AXIS2_PLACEMENT_3D('',#452,#453,#454);
#456=CYLINDRICAL_SURFACE('',#455,3.285E0);
#457=ORIENTED_EDGE('',*,*,#442,.T.);
#459=ORIENTED_EDGE('',*,*,#458,.T.);
#460=ORIENTED_EDGE('',*,*,#445,.F.);
#461=ORIENTED_EDGE('',*,*,#432,.F.);
#462=EDGE_LOOP('',(#457,#459,#460,#461));
#463=FACE_OUTER_BOUND('',#462,.F.);
#464=ADVANCED_FACE('',(#463),#456,.T.);
#465=CARTESIAN_POINT('',(7.122554426234E-12,0.E0,-2.551E2));
#466=DIRECTION('',(4.688975922424E-14,0.E0,1.E0));
#467=DIRECTION('',(-1.E0,0.E0,4.688975922424E-14));
#468=AXIS2_PLACEMENT_3D('',#465,#466,#467);
#469=PLANE('',#468);
#471=ORIENTED_EDGE('',*,*,#470,.T.);
#473=ORIENTED_EDGE('',*,*,#472,.T.);
#474=EDGE_LOOP('',(#471,#473));
#475=FACE_OUTER_BOUND('',#474,.F.);
#476=ORIENTED_EDGE('',*,*,#458,.F.);
#477=ORIENTED_EDGE('',*,*,#447,.T.);
#478=EDGE_LOOP('',(#476,#477));
#479=FACE_BOUND('',#478,.F.);
#480=ADVANCED_FACE('',(#475,#479),#469,.T.);
#481=CARTESIAN_POINT('',(7.099109546622E-12,0.E0,-2.556E2));
#482=DIRECTION('',(4.688975922424E-14,0.E0,1.E0));
#483=DIRECTION('',(9.960679481812E-1,8.859256518511E-2,-4.872293045212E-14));
#484=AXIS2_PLACEMENT_3D('',#481,#482,#483);
#485=TOROIDAL_SURFACE('',#484,7.E0,5.E-1);
#487=ORIENTED_EDGE('',*,*,#486,.T.);
#489=ORIENTED_EDGE('',*,*,#488,.T.);
#490=ORIENTED_EDGE('',*,*,#470,.F.);
#492=ORIENTED_EDGE('',*,*,#491,.F.);
#493=EDGE_LOOP('',(#487,#489,#490,#492));
#494=FACE_OUTER_BOUND('',#493,.F.);
#495=ADVANCED_FACE('',(#494),#485,.T.);
#496=CARTESIAN_POINT('',(-9.542066001407E-13,0.E0,-4.2735E2));
#497=DIRECTION('',(4.688975922424E-14,0.E0,1.E0));
#498=DIRECTION('',(-1.E0,0.E0,4.688975922424E-14));
#499=AXIS2_PLACEMENT_3D('',#496,#497,#498);
#500=CYLINDRICAL_SURFACE('',#499,7.5E0);
#501=ORIENTED_EDGE('',*,*,#486,.F.);
#503=ORIENTED_EDGE('',*,*,#502,.T.);
#505=ORIENTED_EDGE('',*,*,#504,.T.);
#507=ORIENTED_EDGE('',*,*,#506,.F.);
#508=EDGE_LOOP('',(#501,#503,#505,#507));
#509=FACE_OUTER_BOUND('',#508,.F.);
#510=ADVANCED_FACE('',(#509),#500,.T.);
#511=CARTESIAN_POINT('',(-9.542066001407E-13,0.E0,-4.2735E2));
#512=DIRECTION('',(4.688975922424E-14,0.E0,1.E0));
#513=DIRECTION('',(-1.E0,0.E0,4.688975922424E-14));
#514=AXIS2_PLACEMENT_3D('',#511,#512,#513);
#515=CYLINDRICAL_SURFACE('',#514,7.5E0);
#517=ORIENTED_EDGE('',*,*,#516,.F.);
#518=ORIENTED_EDGE('',*,*,#506,.T.);
#520=ORIENTED_EDGE('',*,*,#519,.T.);
#521=ORIENTED_EDGE('',*,*,#502,.F.);
#522=EDGE_LOOP('',(#517,#518,#520,#521));
#523=FACE_OUTER_BOUND('',#522,.F.);
#524=ADVANCED_FACE('',(#523),#515,.T.);
#525=CARTESIAN_POINT('',(7.099109546622E-12,0.E0,-2.556E2));
#526=DIRECTION('',(4.688975922424E-14,0.E0,1.E0));
#527=DIRECTION('',(-9.960679481812E-1,-8.859256518511E-2,4.872293045212E-14));
#528=AXIS2_PLACEMENT_3D('',#525,#526,#527);
#529=TOROIDAL_SURFACE('',#528,7.E0,5.E-1);
#530=ORIENTED_EDGE('',*,*,#516,.T.);
#531=ORIENTED_EDGE('',*,*,#491,.T.);
#532=ORIENTED_EDGE('',*,*,#472,.F.);
#533=ORIENTED_EDGE('',*,*,#488,.F.);
#534=EDGE_LOOP('',(#530,#531,#532,#533));
#535=FACE_OUTER_BOUND('',#534,.F.);
#536=ADVANCED_FACE('',(#535),#529,.T.);
#537=CARTESIAN_POINT('',(4.688975929671E-14,0.E0,-4.06E2));
#538=DIRECTION('',(4.688975922424E-14,0.E0,1.E0));
#539=DIRECTION('',(-9.914241662237E-1,-1.306832913104E-1,4.372570681601E-14));
#540=AXIS2_PLACEMENT_3D('',#537,#538,#539);
#541=TOROIDAL_SURFACE('',#540,6.5E0,1.E0);
#543=ORIENTED_EDGE('',*,*,#542,.T.);
#545=ORIENTED_EDGE('',*,*,#544,.T.);
#546=ORIENTED_EDGE('',*,*,#519,.F.);
#548=ORIENTED_EDGE('',*,*,#547,.F.);
#549=EDGE_LOOP('',(#543,#545,#546,#548));
#550=FACE_OUTER_BOUND('',#549,.F.);
#551=ADVANCED_FACE('',(#550),#541,.T.);
#552=CARTESIAN_POINT('',(0.E0,0.E0,-4.07E2));
#553=DIRECTION('',(4.688975922424E-14,0.E0,1.E0));
#554=DIRECTION('',(-1.E0,0.E0,4.688975922424E-14));
#555=AXIS2_PLACEMENT_3D('',#552,#553,#554);
#556=PLANE('',#555);
#558=ORIENTED_EDGE('',*,*,#557,.F.);
#559=ORIENTED_EDGE('',*,*,#542,.F.);
#560=EDGE_LOOP('',(#558,#559));
#561=FACE_OUTER_BOUND('',#560,.F.);
#562=ADVANCED_FACE('',(#561),#556,.F.);
#563=CARTESIAN_POINT('',(4.688975929671E-14,0.E0,-4.06E2));
#564=DIRECTION('',(4.688975922424E-14,0.E0,1.E0));
#565=DIRECTION('',(9.914241662237E-1,1.306832913104E-1,-4.372570681601E-14));
#566=AXIS2_PLACEMENT_3D('',#563,#564,#565);
#567=TOROIDAL_SURFACE('',#566,6.5E0,1.E0);
#568=ORIENTED_EDGE('',*,*,#557,.T.);
#569=ORIENTED_EDGE('',*,*,#547,.T.);
#570=ORIENTED_EDGE('',*,*,#504,.F.);
#571=ORIENTED_EDGE('',*,*,#544,.F.);
#572=EDGE_LOOP('',(#568,#569,#570,#571));
#573=FACE_OUTER_BOUND('',#572,.F.);
#574=ADVANCED_FACE('',(#573),#567,.T.);
#575=CARTESIAN_POINT('',(7.221022920605E-12,0.E0,-2.53E2));
#576=DIRECTION('',(4.688975922424E-14,0.E0,1.E0));
#577=DIRECTION('',(9.997666644475E-1,2.160131152385E-2,-4.704282940204E-14));
#578=AXIS2_PLACEMENT_3D('',#575,#576,#577);
#579=TOROIDAL_SURFACE('',#578,4.350000000001E1,2.E0);
#580=ORIENTED_EDGE('',*,*,#425,.T.);
#581=ORIENTED_EDGE('',*,*,#415,.T.);
#582=ORIENTED_EDGE('',*,*,#372,.F.);
#583=ORIENTED_EDGE('',*,*,#412,.F.);
#584=EDGE_LOOP('',(#580,#581,#582,#583));
#585=FACE_OUTER_BOUND('',#584,.F.);
#586=ADVANCED_FACE('',(#585),#579,.T.);
#587=CLOSED_SHELL('',(#276,#291,#306,#320,#332,#348,#363,#378,#392,#404,#419,
#436,#451,#464,#480,#495,#510,#524,#536,#551,#562,#574,#586));
#588=MANIFOLD_SOLID_BREP('',#587);
#590=DIMENSIONAL_EXPONENTS(0.E0,0.E0,0.E0,0.E0,0.E0,0.E0,0.E0);
#592=PLANE_ANGLE_MEASURE_WITH_UNIT(PLANE_ANGLE_MEASURE(1.745329251994E-2),#591);
#593=(CONVERSION_BASED_UNIT('DEGREE',#592)NAMED_UNIT(*)PLANE_ANGLE_UNIT());
#595=UNCERTAINTY_MEASURE_WITH_UNIT(LENGTH_MEASURE(4.499881552672E-2),#589,
'closure',
'Maximum model space distance between geometric entities at asserted connectivities');
#596=(GEOMETRIC_REPRESENTATION_CONTEXT(3)GLOBAL_UNCERTAINTY_ASSIGNED_CONTEXT((
#595))GLOBAL_UNIT_ASSIGNED_CONTEXT((#589,#593,#594))REPRESENTATION_CONTEXT
('ID1','3'));
#598=APPLICATION_CONTEXT(
'CONFIGURATION CONTROLLED 3D DESIGNS OF MECHANICAL PARTS AND ASSEMBLIES');
#599=APPLICATION_PROTOCOL_DEFINITION('international standard',
'config_control_design',1994,#598);
#600=DESIGN_CONTEXT('',#598,'design');
#601=MECHANICAL_CONTEXT('',#598,'mechanical');
#602=PRODUCT('AA030062','AA030062','NOT SPECIFIED',(#601));
#603=PRODUCT_DEFINITION_FORMATION_WITH_SPECIFIED_SOURCE('1','LAST_VERSION',#602,
.MADE.);
#607=PRODUCT_CATEGORY('part','');
#608=PRODUCT_RELATED_PRODUCT_CATEGORY('detail','',(#602));
#609=PRODUCT_CATEGORY_RELATIONSHIP('','',#607,#608);
#610=SECURITY_CLASSIFICATION_LEVEL('unclassified');
#611=SECURITY_CLASSIFICATION('','',#610);
#612=CC_DESIGN_SECURITY_CLASSIFICATION(#611,(#603));
#613=APPROVAL_STATUS('approved');
#614=APPROVAL(#613,'');
#615=CC_DESIGN_APPROVAL(#614,(#611,#603,#604));
#616=CALENDAR_DATE(119,5,6);
#617=COORDINATED_UNIVERSAL_TIME_OFFSET(8,0,.AHEAD.);
#618=LOCAL_TIME(16,6,9.E0,#617);
#619=DATE_AND_TIME(#616,#618);
#620=APPROVAL_DATE_TIME(#619,#614);
#621=DATE_TIME_ROLE('creation_date');
#622=CC_DESIGN_DATE_AND_TIME_ASSIGNMENT(#619,#621,(#604));
#623=DATE_TIME_ROLE('classification_date');
#624=CC_DESIGN_DATE_AND_TIME_ASSIGNMENT(#619,#623,(#611));
#625=PERSON('UNSPECIFIED','UNSPECIFIED',$,$,$,$);
#626=ORGANIZATION('UNSPECIFIED','UNSPECIFIED','UNSPECIFIED');
#627=PERSON_AND_ORGANIZATION(#625,#626);
#628=APPROVAL_ROLE('approver');
#629=APPROVAL_PERSON_ORGANIZATION(#627,#614,#628);
#630=PERSON_AND_ORGANIZATION_ROLE('creator');
#631=CC_DESIGN_PERSON_AND_ORGANIZATION_ASSIGNMENT(#627,#630,(#603,#604));
#632=PERSON_AND_ORGANIZATION_ROLE('design_supplier');
#633=CC_DESIGN_PERSON_AND_ORGANIZATION_ASSIGNMENT(#627,#632,(#603));
#634=PERSON_AND_ORGANIZATION_ROLE('classification_officer');
#635=CC_DESIGN_PERSON_AND_ORGANIZATION_ASSIGNMENT(#627,#634,(#611));
#636=PERSON_AND_ORGANIZATION_ROLE('design_owner');
#637=CC_DESIGN_PERSON_AND_ORGANIZATION_ASSIGNMENT(#627,#636,(#602));
#5=CIRCLE('',#4,4.35E1);
#10=CIRCLE('',#9,4.35E1);
#15=CIRCLE('',#14,1.E0);
#20=CIRCLE('',#19,4.45E1);
#33=CIRCLE('',#32,4.45E1);
#38=CIRCLE('',#37,1.E0);
#43=CIRCLE('',#42,4.45E1);
#48=CIRCLE('',#47,4.45E1);
#53=CIRCLE('',#52,4.500000000001E1);
#58=CIRCLE('',#57,4.500000000001E1);
#63=CIRCLE('',#62,5.E-1);
#68=CIRCLE('',#67,4.550000000001E1);
#77=CIRCLE('',#76,4.550000000001E1);
#86=CIRCLE('',#85,4.550000000001E1);
#91=CIRCLE('',#90,4.550000000001E1);
#96=CIRCLE('',#95,5.E-1);
#101=CIRCLE('',#100,2.E0);
#106=CIRCLE('',#105,4.350000000001E1);
#111=CIRCLE('',#110,4.350000000001E1);
#116=CIRCLE('',#115,3.285E0);
#129=CIRCLE('',#128,3.285E0);
#134=CIRCLE('',#133,3.285E0);
#139=CIRCLE('',#138,3.285E0);
#144=CIRCLE('',#143,7.E0);
#149=CIRCLE('',#148,7.E0);
#154=CIRCLE('',#153,5.E-1);
#159=CIRCLE('',#158,7.5E0);
#168=CIRCLE('',#167,7.5E0);
#177=CIRCLE('',#176,7.5E0);
#182=CIRCLE('',#181,7.5E0);
#187=CIRCLE('',#186,5.E-1);
#192=CIRCLE('',#191,1.E0);
#197=CIRCLE('',#196,6.5E0);
#202=CIRCLE('',#201,6.5E0);
#207=CIRCLE('',#206,1.E0);
#212=CIRCLE('',#211,2.E0);
#270=EDGE_CURVE('',#239,#240,#5,.T.);
#272=EDGE_CURVE('',#240,#239,#10,.T.);
#282=EDGE_CURVE('',#235,#236,#20,.T.);
#284=EDGE_CURVE('',#236,#240,#38,.T.);
#287=EDGE_CURVE('',#235,#239,#15,.T.);
#298=EDGE_CURVE('',#235,#215,#24,.T.);
#300=EDGE_CURVE('',#215,#216,#43,.T.);
#302=EDGE_CURVE('',#236,#216,#28,.T.);
#312=EDGE_CURVE('',#236,#235,#33,.T.);
#315=EDGE_CURVE('',#215,#216,#48,.T.);
#338=EDGE_CURVE('',#263,#264,#53,.T.);
#340=EDGE_CURVE('',#264,#263,#58,.T.);
#354=EDGE_CURVE('',#259,#260,#68,.T.);
#356=EDGE_CURVE('',#260,#264,#96,.T.);
#359=EDGE_CURVE('',#259,#263,#63,.T.);
#370=EDGE_CURVE('',#259,#231,#72,.T.);
#372=EDGE_CURVE('',#231,#232,#77,.T.);
#374=EDGE_CURVE('',#260,#232,#81,.T.);
#384=EDGE_CURVE('',#260,#259,#86,.T.);
#387=EDGE_CURVE('',#232,#231,#91,.T.);
#410=EDGE_CURVE('',#228,#227,#111,.T.);
#412=EDGE_CURVE('',#227,#231,#212,.T.);
#415=EDGE_CURVE('',#228,#232,#101,.T.);
#425=EDGE_CURVE('',#227,#228,#106,.T.);
#430=EDGE_CURVE('',#243,#247,#116,.T.);
#432=EDGE_CURVE('',#243,#247,#129,.T.);
#442=EDGE_CURVE('',#243,#244,#120,.T.);
#445=EDGE_CURVE('',#247,#248,#124,.T.);
#447=EDGE_CURVE('',#244,#248,#139,.T.);
#458=EDGE_CURVE('',#244,#248,#134,.T.);
#470=EDGE_CURVE('',#255,#256,#144,.T.);
#472=EDGE_CURVE('',#256,#255,#149,.T.);
#486=EDGE_CURVE('',#251,#252,#159,.T.);
#488=EDGE_CURVE('',#252,#256,#187,.T.);
#491=EDGE_CURVE('',#251,#255,#154,.T.);
#502=EDGE_CURVE('',#251,#223,#163,.T.);
#504=EDGE_CURVE('',#223,#224,#168,.T.);
#506=EDGE_CURVE('',#252,#224,#172,.T.);
#516=EDGE_CURVE('',#252,#251,#177,.T.);
#519=EDGE_CURVE('',#224,#223,#182,.T.);
#542=EDGE_CURVE('',#220,#219,#202,.T.);
#544=EDGE_CURVE('',#219,#223,#207,.T.);
#547=EDGE_CURVE('',#220,#224,#192,.T.);
#557=EDGE_CURVE('',#219,#220,#197,.T.);
#589=(LENGTH_UNIT()NAMED_UNIT(*)SI_UNIT(.MILLI.,.METRE.));
#591=(NAMED_UNIT(*)PLANE_ANGLE_UNIT()SI_UNIT($,.RADIAN.));
#594=(NAMED_UNIT(*)SI_UNIT($,.STERADIAN.)SOLID_ANGLE_UNIT());
#597=ADVANCED_BREP_SHAPE_REPRESENTATION('',(#588),#596);
#604=PRODUCT_DEFINITION('design','',#603,#600);
#605=PRODUCT_DEFINITION_SHAPE('','SHAPE FOR AA030062.',#604);
#606=SHAPE_DEFINITION_REPRESENTATION(#605,#597);
ENDSEC;
END-ISO-10303-21;
